Search More chords.

Monday, August 20, 2012

Tabs for Jeena yahan marna yahan: Mera naam joker


Tabs for Jeena yahan marna yahan
From: Mera naam joker
Raj kapoor
Singer: Mukesh
Thanks to salabh to submit tabs....

E|------------------------------------------------------
B|-----3-4-----3-0-1-3----------------------------------
G|-0-5--------------------------------------------------
D|------------------------------------------------------
A|------------------------------------------------------
E|------------------------------------------------------

E|------------------------------------------------------
B|------1-3--4-3-0-1------------------------------------
G|-0-4--------------------------------------------------
D|------------------------------------------------------
A|------------------------------------------------------
E|------------------------------------------------------

E|------------------------------------------------------
B|-5-6--3-5-5---5-5-6-3-5------3-0-1-3------------------
G|------------------------------------------------------
D|------------------------------------------------------
A|------------------------------------------------------
E|------------------------------------------------------

E|------------------------------------------------------
B|-4-3-0-1------1-3----4-3-0-1--------------------------
G|----------0-4-----------------------------------------
D|------------------------------------------------------
A|------------------------------------------------------
E|------------------------------------------------------

No comments: