Search More chords.

Thursday, November 13, 2008

Tabs: Ae mere humsafar (Qayamat se qayamat tak)

Tabs for: Ae mere, humsafar
Qayamat se qayamat tak (1989)




E-------------------------------------------
G-6-------6---------------------------------
D---9-7-----9-7-----------------------------
A-------------------------------------------
E-------------------------------------------
Ae mere, humsafer


E-------------------------------------------
G-6-6-6-10-8-6-5-3-1------------------------
D-------------------------------------------
A-------------------------------------------
E-------------------------------------------
ek zara intazaar


E-------------------------------------------
G-1-1-5-3-1-----1-1-5-3-1---6-5-3-3---------
D-------------------------2-----------------
A-------------------------------------------
E-------------------------------------------
Sun Sadaaye De rahi hai, manzil pyar ki


E-------------------------------------------
G-------9-7-6-7-9-6-------------------------
D-6-6-6-------------------------------------
A-------------------------------------------
E-------------------------------------------
Ab hai judai ka mausam


E-------------------------------------------
G-----7-6-4--4-6-7--------------------------
D-6-6---------------------------------------
A-------------------------------------------
E-------------------------------------------
Do Pal kaa mehmaan


E-------------------------------------------
G-----10-8-7-8-10-7-------------------------
D-8-8---------------------------------------
A-------------------------------------------
E-------------------------------------------
Kaise na jayega andheraa


E-------------------------------------------
G-----8-7-5--5-7-8--------------------------
D-7-7---------------------------------------
A-------------------------------------------
E-------------------------------------------
Kyun na thamega tufaan


E-------------------------------------------
G----------5-2-0---5-4-2-2------------------
D-8-8-11-9-------2--------------------------
A-------------------------------------------
E-------------------------------------------
Kaise na milegii manzil pyar ki

No comments: