Search More chords.

Monday, November 17, 2008

Guitar tabs for Ab mujhe raat din: Sonu nigam

Tabs for Ab mujhe raat din
Sonu Nigam
Album: Deewana
Submitted by: Karan




E ------3---6--5-------------3-5-3---2--------5--2--3------------
B ---4---------------3-3--------------------3--------------------
Eb G Bb A D D G A G F# D A F# G

--------------------------------------------------------------------------------
E --10-9-10------------------------------------------------------
B -------------8---10-8--10-8--7------5--6--6--3--1-----1-3------
G ---------------------------------------------------3-----------
D Db D G A G A G F# E F F D C Bb C D
u u u ................... he he he he he he he

--------------------------------------------------------------------------------

E -3-5-3--2--3--6---5-----------3--3--5-3--2--3-3-3--------------
B ---------------------------------------------------------------
G A G F# G Bb A G G A G F# G G G
ab mujhe raat din tumhara hi khayal hai


E --3---5---3---2-3--6--6--8-5---3--3--5--3--2-3-5--3--3---------
B ---------------------------------------------------------------
G A G F# G Bb Bb C A G G A G F# G A G G
Kya kahoon pyaar mein deewano jaisa haal hai

E --3-3--3--5--6----8--10-8--5-3_5-3-1---------------------------
B -----------------------------------------3--3--1-----1-3-3--3--
G --------------------------------------------------3------------
G G G A Bb C D C A G A G F D D C Bb C D D D
deewano jaisa haaaaaal hai tumhara hee khayal hai

--------------------------------------------------------------------------------

E ---------------------------------------------------------------
B ---------------------------------------------------------------
G --2-3--2-0-2----2-3--2-0-2--------0----------------------------
D ----------------------------3-0-3------------------------------
A Bb A G A A Bb A G A F D F G

E ---------------------------------------------------------------
B ---------------------------------------------------------------
G --2-3--2-0-2----2-3--2-0-2------0------------------------------
D ----------------------------0-3---3----------------------------
A Bb A G A A Bb A G A D F G F

E ---------------------------------------------------------------
B ---------------------------------------------------------------
G -----0-2--0-2-h3--2-0-------------0-2--0-2-h3--2-0-------------
D --3-------------------3---------3------------------3-----------
F G A G A Bb A G F F G A G A Bb A G F

G ------------3--0-----------------------------------------------
D --2-2-2-2-3------3-1--0----------------------------------------
E E E e F Bb G F Eb D

--------------------------------------------------------------------------------

E -10-10-10-12--13-12----10-8----------8--8--8--12--8--10--------
B ---------------------------------------------------------------
D D D E F E d c C C C E C D
Tumko dekhe bina chain milta nahin

E -10--10-10-13--13-13-15-13-12----10-8------8--8--8--12--8--10--
B ---------------------------------------------------------------
D D D F F F G F E D C C C C E C D
Dil pe ab to koi zor chalta nahin
--------------------------------------------------------------------------------




--------------------------------------------------------------------------------
E ---10--12-10--6--8-8---------10-12-10--6-10-8------------------
B ---------------------------------------------------------------
D E D Bb C C D E D Bb D C
jaadu hai kaisa dil ki lagee mein

E -10-12-10-6---8--6--5-------10---------------------------------
B --------------------------10---10-8--10-8--8-------------------
D Eb D Bb C Bb A A D A G A G G
doob gaya hoon kis bekhudi mein...
--------------------------------------------------------------------------------

2 comments:

skill said...

thanks bro
check out this 1 too.

The song uses basic chords so even if you have just learned chords, you

can play this song comfortably.


Cmaj, Amin, Dmin, Gmaj, Fmaj

Tum Ho (C)Toh… Gaata Hai (C)Dil,
Tum Na(Dm)hi… Toh Geet Ka(G)ha…
Tum Ho (C)Toh… Hai Sab Haa(C)sil,
Tum Na(Dm)hi… Toh Kya Hai Ya(G)ha…

(Bb)Tum Ho Toh (Am)Hai,
Sap(Bm)no Ke Jaisa Ha(Em)sin
(F)Ek Sa(C)maa…

Jo (G)Tum Ho Toh, Yeh (E)Lagta Hai,
Ke (Am)Mil Gayi, (F)Har Khushi…
Jo (G)Tum Na Ho, Yeh (E)Lagta Hai,
Ke (Am)Har Khushi, Me (F)Hai Kami…

(G)Tum Ko Hai Maanga(G)ti…
Ye Jinda(C)giiii (Am) iiiii (F) iiii…(C)

(Gm)Woh ho… (A#)Woh ho… (C)Woh ho ho… ho ho…

Tum Ho (C)Toh… Raahein Bhi (C)Hai,
Tum Na(Dm)hi… Toh Raste Ka(G)ha…
Tum Ho (C)Toh… Yahaan Sab Hi (C)Hai,
Tum Na(Dm)hi.. Toh Kaun Ya(G)haa…

(Bb)Tum Ho Toh (Am)Hai,
Har (Bm)Ek Pal Meher(Em)ban
(F)Ye Ja(C)haaa…

Jo (G)Tum Ho Toh, Ha(E)wa Mein Bhi…
Mo(Am)habbato… Ka (F)Rang Hai
Jo (G)Tum Na Ho, Toh (E)Phir Koyi…
Na (Am)Josh Na… U(F)mang Hai…

(G)Tum Mile Toh Mi(G)li
Yeh Jinda(C)giiii (Am) iiiii (F) iiii… (C)

(Gm)Woh ho… (A#)Woh ho… (C)Woh ho ho… ho ho… x2

iNdiaAn GuiTArist said...

Thanks sill thanks a lot....
Hope to get updation like this .....