Search More chords.

Wednesday, October 29, 2008

tabs for kabhi to nazar milao(Adnan Sami)

Kabhi to Nazar milao (Adnan Sami)
tabs by pranshu



E --7-6-4--2-4--4--2--0-------------------------
B --------------------------------------
G --------------------------------------
D --------------------------------------
A --------------------------------------
E --------------------------------------
Kabhi to nazer milao

E -7-6-4-2-2---2-0-2----------------------------
B --------------------------------------
G --------------------------------------
D --------------------------------------
A --------------------------------------
E --------------------------------------
Kabhi to Kareeb aoo

E -7-8-10-10---10--10---------------------
B --------------------------------------
G --------------------------------------
D --------------------------------------
A --------------------------------------
E --------------------------------------
Jo Nahin Kaha hai

E --12-13-12-10-10-7-7-5----------------
B --------------------------------------
G --------------------------------------
D --------------------------------------
A --------------------------------------
E --------------------------------------
Kabhi to samuj bhi jao

E -3-5-7-8-7-5-5-------------------------------
B --------------------------------------
G --------------------------------------
D --------------------------------------
A --------------------------------------
E --------------------------------------
Hum bhi to hain tumhare

E -3-5-7-5-3--3-3------------------------------
B --------------------------------------
G --------------------------------------
D --------------------------------------
A --------------------------------------
E --------------------------------------
Dewanne ho dewannne

No comments: