Search More chords.

Saturday, October 27, 2012

Tabs for main kya karoon: Barfi(2012)


E|-------------------------------------------------------------------
B|----------------------------------------------5--------------------
G|-----4--4-4--------4-4-4-4/6-------4--4-4-------6--4-4--6--4-4-----
D|-6--------------6----------------6---------------------------------
dil ye mera, bas mein nahin pahle kabhi aisa hota tha nahin

E|-------------------------------------------------------------------
B|-------------------------------------------------------------------
G|-4-4---------------------------------------------------------------
D|------7-7----7-7-6-6-------------------4-2-4--6-6------------------
tu hi bata iss dil ka main ab kya karun


E|-------------------------------------------------------------------
B|--------------------------------------------7-5-5------------------
G|---4-4-4-4-----4-4-4-4/6------4-4-4-4-----------------6-4-4/6-4-4--
D|-6----------6---------------6--------------------------------------
kahne pe chalta nahin kuch dino se meri bhii sunta nahi


E|-------------------------------------------------------------------
B|-------------------4----4-------------------4---4--5-5-------------
G|-4-4-6-4-6----6--6----6-------------4---6--------------------------
D|-------------------------------------------------------------------
tu hi bata is dil ka main uf ab main kya karun


E|-------------------------------------------------------------------
B|-4----4--5-5------5----5-----4-4---4----4--------------------------
G|--------------------------------------------6-6------6----4-6--4-4-
D|-------------------------------------------------------------------
main kya karon main kya karoon main kya karon main kya karon

No comments: