Search More chords.

Saturday, October 27, 2012

Pukarta chala hun mein: Mere sanam


Tabs for Pukarta chala hun mein
by Rafi sahab

E-------------------------------------------------------------------
B-----------------------------------------------5-5--4-4----4-------------
G------------------------------------------6-6------------4----6-6---4----
D-------------------6-6---4-----4-4---7-7--------------------------7---6--
A---4----4-4---7-7-----------7--------------------------------------------
E-----4-------------------------------------------------------------------


E--------12-~~-9-11-12-11-7~~--7-9-11---------------------------
B---9-9-------------------------------7~----9-10-10-9~~~-------
G----------------------------------------------------------------
D----------------------------------------------------------
A--------------------------------------------------------------
E-----------------------------------------------------


E---9-7~--6-5~--4-5~-4-5~4~------4~-3-4~--3-4~------|
B------------------------------5--------------------|
G----------------------------6~---------------------|


E---2---2---------------------4-------
B-----4---5-4-~-2~~-----------5---------
G-----------------------------6
D-----------------------------6
A-----------------------------4
E-----------------------------4

No comments: