Search More chords.

Monday, September 17, 2012

Tabs for hips dont lie : Shakira


e|-9-8-6---------6-9-8-6-----------------------------------|
B|--------7---7-9---------9-6---6-7-9-11-9-7-13-11-9-11----|
G|---------------------------------------------------------|
D|---------------------------------------------------------|
A|---------------------------------------------------------|
E|---------------------------------------------------------|


e|--------13~-------14~-------18-13~~----------------------|
B|-11-11------11-11----11-11-------------------------------|
G|---------------------------------------------------------|
D|---------------------------------------------------------|
A|---------------------------------------------------------|
E|---------------------------------------------------------|

No comments: