Search More chords.

Sunday, September 16, 2012

Tabs About a girl : Nirvana

Tabs About a girl Nirvana
starting intro:
e--0---0--0----3--3-------0--------3--3---------0--------3--3----|
b--0---0--0----0--0--0----0--0-----0--0---0-----0--0-----0--0--0-|
g--x---x--x-------0--0-------0--0-----0---0--------0--0-----0--0-|
d--2---2--2-------0--0-------0--0-----0---0--------0--0-----0--0-|
a--2---2--2-------------2----0------------0---2----0-------------|
e--0---0--0--3----3-----0----0--3-----3-------0----0--3-----3----|

e-----0-----0-----3--3------|
b-----0-----0-----0--0----0-|
g-----x-----0--0--0--0----0-|
d-----2--2--0--0-----0----0-|
a--2-----2--0-------------0-|
e--0-----0-----3-----3------|

Struming chords Em and G

e---------------------(0)--------0--0------0--(0)---|
b--6---6--6-----6--6--(0)--------0--0------0--(0)---|
g--6---6--6-----6--6-------------3--3------3--------|
d--6---6--6-----6--6---------4---4--4------4--------| x2
a--4---4--4------------------4----------4-----------|
e------------4---------------2----------2-----------|

e--0---0--0-----0--0--0---0--0--0-----------------|
b--0---0--0-----0--0--0---2--2--2--5----5--5------|(0)
g--x---x--x-----x--x--x---2--2--2--5----5--5------|(0)
d--2---2--2---------------2-----2--5----5--5------|(0)
a--2---2--2--2------------0-----0--3----3--3------|
e--0---0--0--0------------------------------------|

Lead:
e------------------------------------------|
b-------------------------------9/12-12-12-|
g-----------------7--7--7/9/----9/12-12-12-|
d-----------5--7--7--7--7/9--9--9/12-12-12-|
a-----5--7---------------------------------|
e--0---------------------------------------|

e--------------------------------------------|
b---------------------------9----12----12----|
g--------------7--7--7/9----9----12----12----|
d-----------5--7--7--7/9----9----12----12----|
a-----5--7---------------0----0-----0------0-|
e--0-----------------------------------------|

e-------------------------------------------|
b--------------------7/9-----9--12----12----|
g-----------------7--7/9--9--9--12-12-12----|
d-----------5--7--7--7/9--9--9--12-12-12----|
a-----5--7----------------------------------|
e--0----------------------------------------|

e--------------------------------------------|
b--------------------7/9--9--9--9/12--12--12-|
g--------------------7/9--9--9--9/12--12--12-|
d-----------5--7--7--7/9--9--9--9/12--12--12-|
a-----5--7-----------------------------------|
e--0-----------------------------------------|

e--0---0--0-------0--0--0--0--0--0-----------------------------------0--|
b--0---0--0-------0--0--0--2--2--2--5---5-5-5-5-5-5-5-5-5-5-5-5-5-5--0--|
f--x---x--x-------x--x--x--2--2--2--5---5-5-5-5-5-5-5-5-5-5-5-5-5-5--0--|
d--2---2--2----------------2-----2--5---5-5-5-5-5-5-5-5-5-5-5-5-5-5--0--|
a--2---2--2--2-------------0-----0--3---3-3-3-3-3-3-3-3-3-3-3-3-3-3--0--|
e--0---0--0--0-------------------------------------------------------0--|

No comments: