Search More chords.

Tuesday, August 21, 2012

Tabs for Tu tu hai wahi : Kishore, Lata


Tabs for Tu tu hain wahi
Key: C#m


E-------------5-|--5--------------------4---------
B---4-5-4-------|-----7-5-4-----4-----------------
G-6--------6----|------------6-----6-4------------
D---------------|---------------------------------
A---------------|---------------------------------
E---------------|---------------------------------
Tu tu hai wahi, Dil ne jise apna kaha



E---------------------4-----4-----------------------
B--4-4-------------4-----7-----7-6----------------------
G-------6-5-----5------------------------------------
D------------6-------------------------------------
A-------------------------------------------------
E-------------------------------------------------

No comments: