Search More chords.

Monday, August 20, 2012

Tabs for Do lafzo ki hai : The great gambler


Tabs for Do lafzo ki hai
From: The great gambler


B|------------------3--------3----------------3--
G|-------------2--------2--------2----0--2-----
D|-0--2--3--------------------------------------
Do lafzo ki hai, dil ki kahani

B|----3------------------------------------------------
G|-0-----0----------3------0-------------------------
D|------------3--3-------3-----3---3--2--0--2--0--
ya hai mohobbat, yaa hai jawani

G|------------0--------------------------
D|-0--2--3------2--2----4--2--4--3--
La la la la la la la



B|-1----------1--1h3----------
G|-----3--2-------------3--2---
ye kashti walaa,

B|-1----------1--1h3----------
G|-----3--2-------------3--2---
kya gaa raha tha

E|-0---------0--0----0-------------------
D|---3--------------------3-------3--3---
G|------2---------------------2-----------
koi ise bhi, yaad aa raha tha


G|------------0--2--3--3--3--3--2---
D|-0--2--3----------------------------
La La La La La la Laa

B|------------------3--------3----------------3--
G|-------------2--------2--------2----0--2-----
D|-0--2--3--------------------------------------
kisse purane, yaadein purani

B|----3------------------------------------------------
G|-0-----0----------3------0-------------------------
D|------------3--3-------3-----3---3--2--0--2--0--
ya hai mohabbat, ya hai jawani



B|-1----------1--1h3----------
G|-----3--2-------------3--2---
is zindagi ke

B|-1----------1--1h3----------
G|-----3--2-------------3--2---
din kitne kam hain

E|-0---------0--0----0-------------------
D|---3--------------------3-------3--3---
G|------2---------------------2-----------
kitni hain khushiyaan, aur kitne gham hain

G|------------0--2--3--3--3--3--2---
D|-0--2--3----------------------------
La La La La La la Laa

B|------------------3--------3----------------3--
G|-------------2--------2--------2----0--2-----
D|-0--2--3--------------------------------------
lag jaa gale se, rut hai suhaani

B|----3------------------------------------------------
G|-0-----0----------3------0-------------------------
D|------------3--3-------3-----3---3--2--0--2--0--
yaa hai mohabbat, ya hai jawani

No comments: