Search More chords.

Tuesday, August 21, 2012

Intro chords for Aashiqui ke liye: Aashiqui


Intro tabs for Saanson ki zarurat hain jaise
From: Aashiqui

E -------------------------------------------------------------------------
B -------------------------------------------------------------------------
G -4-2-4-2-0-2-4-5-5-4--2-2-2--0-2-0----------2-0-2-0---0-2-4-4-2-4-0-0-0--
D -----------------------------------3----------------3--------------------
A -------------------------------------------------------------------------
E -------------------------------------------------------------------------


E ---------------------------------------------------------------------------
B -----------------3---------------------------------------------------------
G -4-2-4-2-0-2-4-5---5 4--2-2-2--0-2-0----------2-0-2-0---0-2-4-4-2-4-0-0-0--
D -------------------------------------3----------------3--------------------
A ---------------------------------------------------------------------------
E ---------------------------------------------------------------------------

No comments: