Search More chords.

Saturday, February 25, 2012

Tabs for Tu hi meri shab hain

Tu hi meri shab hain subah hain, taken from the movie Gangster, 2006 Starrer Shiney Ahuja, Emraan Hashmi and Kangana Ranaut, directed by Anurag Basu.

Tabs for Tu hi meri shab hain...


---------------------------------------------------------------------------------
-------0---1----0----------0-------------------------0----1----0-----------------
--2-------------------2---------0------0---2-----2------------------2----0-----2-
-----------------------------------2---------------------------------------------
---------------------------------------------------------------------------------
---------------------------------------------------------------------------------

Tu hi meri shab hain subaha hain, tu hi din hain merraa


---------------------------------------------------------------------------------
-------0---1----0----------0-------------------------0----1----0-----------------
--2-------------------2---------0------0---2-----2------------------2----0-----2-
-----------------------------------2---------------------------------------------
---------------------------------------------------------------------------------
---------------------------------------------------------------------------------
Tu hi mera rab hain jahan hain, Tu hi meri duniyaa


---0---0---0---0---1---0-------3---3---5---3--1-----0---0---0--------------------
---------------------------3-------------------------------------3----p5---------
---------------------------------------------------------------------------------
---------------------------------------------------------------------------------
---------------------------------------------------------------------------------
---------------------------------------------------------------------------------
Tu waqt mere liye, Main hun tera Lamha


---0---0---0---0---1---0-------3---3---5---3--1-----0---0---0--------------------
---------------------------3-------------------------------------3----p5---------
---------------------------------------------------------------------------------
---------------------------------------------------------------------------------
---------------------------------------------------------------------------------
---------------------------------------------------------------------------------
Kaise rahe ga bhala, Hoke tu mujhse judaa


------------0------------------------0-----------------0-------------------------
---1---3--------3---1---3---3---3--------1-----1---3-------3---1---0-------------
------------------------------------------------------------------------2--------
---------------------------------------------------------------------------------
---------------------------------------------------------------------------------
---------------------------------------------------------------------------------
ho O O O O O....O O O O O O O

No comments: