Search More chords.

Saturday, July 24, 2010

Tabs for Escape by Enrique iglesias (English)






Enrique iglesias, english spanish singer....
Escape got him the top popularity in pop music, Album made various records in 2001-2002.......



Tabs for Escape....





m = stroke down
v = stroke up

INTRO
e|------------------------------------------------------|
B|------------------------------------------------------|
G|------4---4---4-------4---4-----3---------------------|
D|----4---4---2---2-----------------4-------------------|
A|--2-----------------6---6-----------------------------|
E|------------------4-----------2-----------------------|

e|------------------------------------------------------|
B|------------------------------------------------------|
G|------4---44--4-------4---------33--------------------|
D|----4---4----2--------------------4-------------------|
A|--2-----------------6---6--22-------------------------|
E|------------------4-----------2-----------------------|

Verse

e|------------------------------------------------------|
B|------------------------------------------------------|
G|------4---44--4-------4---------33--------------------|
D|----4---4----2--------------------4-------------------|
A|--2-----------------6---6--22-------------------------|
E|------------------4-----------2-----------------------|

e|------------------------------------------------------|
B|------------------------------------------------------|
G|------4---4---4-------4---4-----3---------------------|
D|----4---4---2---2-----------------4-------------------|
A|--2-----------------6---6-----------------------------|
E|------------------4-----------2-----------------------|

e|------------------------------------------------------|
B|------------------------------------------------------|
G|------4---44--4-------4---------33--------------------|
D|----4---4----2--------------------4-------------------|
A|--2-----------------6---6--22-------------------------|
E|------------------4-----------2-----------------------|

e|------------------------------------------------------|
B|------------------------------------------------------|
G|------4---44--4-------4---------33--------------------|
D|----4---4----2--------------------4-------------------|
A|--2-----------------6---6--22-------------------------|
E|------------------4-----------2-----------------------|

e|------------------------------------------------------|
B|------------------------------------------------------|
G|------4---4---4-------4---4-----3---------------------|
D|----4---4---2---2-----------------4-------------------|
A|--2-----------------6---6-----------------------------|
E|------------------4-----------2-----------------------|








Chorus m m v m m m v m
e|--------2---2--2--2--------4-------------4---4------2-|
B|--------4---4--4--2--------4-------------4---4------2-|
G|--------4---4--4--3--------4-------------4---4------3-|
D|--------4---4--4--4--------6-------------6---6------4-|
A|--------2---2--2--4--------6-------------6---6------2-|
E|--------x---x--x--2--------4-------------4---4------2-|
if you feel like leaving I'm not gonna beg you to stay

m m v m m m m v m m m
e|--2----2----2-----2--------------4-----------4--------4----0---0-----0----2-|
B|--4----4----4-----2--------------4-----------4--------4----0---0-----0----2-|
G|--4----4----4-----3--------------4-----------4--------6----1---1-----1----4-|
D|--4----4----4-----4--------------6-----------6--------6----2---2-----2----4-|
A|--2----2----2-----4--------------6-----------6--------6----2---2-----2----2-|
E|--x----x----x-----2--------------4-----------4--------4----0---0-----0----x-|
soon you'll be finding you can run you can hide but you can't escape my love


Riff

e|-7-7p6p------h7-7-6-7-9-------------------------------|
B|------h7--7p9p----------------------------------------|
G|------------------------------------------------------|
D|------------------------------------------------------|
A|------------------------------------------------------|
E|------------------------------------------------------|

No comments: