Search More chords.

Tuesday, March 31, 2009

tabs for behka main behka: ghazini

Guitar tabs for behka main behka
submitted by prabhu.
Movie: ghazini


E------------------------------------------------
B-------8-6---------6-6-------------8-6---6-6-6--
G-----7-----------7----------------7-----7-------
D------------------------------------------------
A------------------------------------------------
E------------------------------------------------
Behka main behka Woh behki hawa si aai


E--------------------------------------------
B----8-6-------------------------------------
G-7------7-6---------------6-6-6-6-6-6h7-----
D--------------------------------------------
A--------------------------------------------
E--------------------------------------------
Ek hi nazar mein sab Manzil wanzil paaye




E------------------------------------------------
B-------8-6---------6-6-------------8-6----6-6---
G-----7-----------7----------------7-----7-------
D------------------------------------------------
A------------------------------------------------
E------------------------------------------------
Hatke alag si thi Bilkul juda si



E--------------------------------------------
B----8-6-------------------------------------
G-7------7-6---------------6-6-6-6-6-6h7-----
D--------------------------------------------
A--------------------------------------------
E--------------------------------------------
Na hi adaayein Na Ko aangraii

No comments: