Search More chords.

Tuesday, March 24, 2009

Intro guitar tabs for Masakkali: Delhi6

Intro tabs for Masakkali:
Movie: Delhi6(2009)
Music: A. R. Rahmaan
tabs by sandeep.



E --------------------------------------------------------
B -8-6---6------------------------------------------------
G ----8-8-8--5-5-5--5-7-8-7-7-8h10-10-8-7-8--7-5-7--------
D --------------------------------------------------------
A --------------------------------------------------------
E --------------------------------------------------------



E -------------6-8--6h8-6h8--10--11-10-11-10--13--11-10---
B -8------6h8-9-------------------------------------------
G --------------------------------------------------------
D --------------------------------------------------------
A --------------------------------------------------------
E --------------------------------------------------------



E -10-8-10-8-10--8p6------6-5----6-5----6-5----6-5--------
B ------------------8-6--8---9-8----9-8----9-8----9-8-----
G --------------------------------------------------------
D --------------------------------------------------------
A --------------------------------------------------------
E --------------------------------------------------------

No comments: