Search More chords.

Tuesday, November 11, 2008

Tabs for suraj hua maddham(kabhi khushi kabhi gham)

Tabs for suraj huaa maddham
Movie: Kabhi khushi kabhi gham
Sonu nigam..


E
A ---5------5---5
D------5-5----3
G
B
E
Suraj hua maddham

E
A
D---5-------5---3---
G-----2-3-2---2---
B
E
Chand jalne laga


E
A--5---5---5--
D----5---3---
G
B
E
Aasman ye haaye

E
A
D---5-------5---3---
G-----2-3-2---2---
B
E
Kyun pighalne laga


E
A
D---5-5-5-3-5
G
B
E
main thehra rahaa

E
A------5
D--------3-5
G--2-2
B
E
zameen chalne lagi


E
A------------5
D---5-5-5--3
G--------2
B
E
Ki dhadka ye dil

E
A-----5
D-------3-5
G--2-2
B
E
saans thamne lagi..


E
A
D
G-2-2,
B
E
oo,


E
A
D------3-5---------3-5-5
G--2-2-----2-2h3-2
B
E
Kya ye mera pahla pahla pyar hai

E
A
D----------3-5-3
G--3-3-3p2
B
E
Sajnaaaa


E
A
D------3-5---------3-5-5
G--2-2-----2-2h3-2
B
E
Kya ye mera pahla pahla pyar hai


E
A----------5
D--5-----3---5
G----3-2
B
E
Aaa Aa Aa, aa aa aaa aa(Tune)

No comments: