Search More chords.

Monday, November 17, 2008

Tabs for Piyu bole: Parineeta

Tabs for Piyu bole
From: Parineeta
Submitted by: Karan



E----8-7-5-8-7----------
B--8--------------------

Dil ki jo baatein hain

E----8-7-5-8-7----------
B--8--------------------

Baatien Jo dil ki hain

E----8-7-5-7-8-7--------
B--8--------------------

Dil hi mein rakhna Piya

E--------5---5-7-8-7----
B--8-7-8----------------

Piyu Bole ... Piya Bole

E--------5--------------
B--8-7-8-----8-7-8------

Kya ye Bole ... Jaana

No comments: