Search More chords.

Friday, October 17, 2008

Tabs for tum agar saamne from Raaz

Tabs for Tum agar saamne
From Raaz
tabs by shailesh.


-----------------------8--------------------------------------------------
------8---8-8-8---8-8-----10-8-10-8-6------10-11-10-8-8---10-11-10-8-8----
-7-7----------------------------------------------------------------------
--------------------------------------------------------------------------
--------------------------------------------------------------------------
--------------------------------------------------------------------------
Mein agar saamne aa bhi jaya karoon, laazmi hain ke tum mujhse...


--------8-----------------------------------------------------------------
-10-11-----11-8-10--------------------------------------------------------
--------------------------------------------------------------------------
--------------------------------------------------------------------------
--------------------------------------------------------------------------
--------------------------------------------------------------------------
parda karo


-----------------------8--------------------------------------------------
------8---8-8-8---8-8-----10-8-10-8-6-----10-11-10-8-8-----10-11-10-8-8---
-7-7----------------------------------------------------------------------
--------------------------------------------------------------------------
--------------------------------------------------------------------------
--------------------------------------------------------------------------
Apni shaadi ke din ab nahin door hai, mein b tadpa karoon..


--------8-----------------------------------------------------------------
-10-11------11-8-10-------------------------------------------------------
--------------------------------------------------------------------------
--------------------------------------------------------------------------
--------------------------------------------------------------------------
--------------------------------------------------------------------------
tum bhi tadpa karon...



-10-10--10-10--8-10-8-6-----10-10--10-10--8-10-8-6-----11-10-8-6----------
------------------------------------------------------------------10--10--
--------------------------------------------------------------------------
--------------------------------------------------------------------------
--------------------------------------------------------------------------
--------------------------------------------------------------------------
Badi mushkil he, yeh mera dil he, tum hi kaho kaise

----------------6-8------6------------------------------------------------
-8h10p8-6---10-------10---------------------------------------------------
--------------------------------------------------------------------------
--------------------------------------------------------------------------
--------------------------------------------------------------------------
--------------------------------------------------------------------------
mai chup rahoon...

No comments: