Search More chords.

Wednesday, October 1, 2008

Tabs for main koi aisa geet gaon from Yes-Boss

Tabs for Main koi aisa geet gaon
From Yes-Boss
Singer: Abhijeet
tabs by pranav..



E-5-7-5-9--9-9-5-5-5------------------------
G-------------------------------------------
D-------------------------------------------
A-------------------------------------------
E-------------------------------------------
Main koi aisa Geet Gaoon


E-5-9-9-9---5-5-5---------------------------
G-------------------------------------------
D-------------------------------------------
A-------------------------------------------
E-------------------------------------------
Ke arzoo jagaoon


E-5-7-5-9--9-9-5-5-5------------------------
G-------------------------------------------
D-------------------------------------------
A-------------------------------------------
E-------------------------------------------
Main koi aisa geet Gaoon


E-5-9-9-9---5-5-5---------------------------
G-------------------------------------------
D-------------------------------------------
A-------------------------------------------
E-------------------------------------------
Ke arzo jagaoun


E-7-2---2-4--4-5----------------------------
G-------------------------------------------
D-------------------------------------------
A-------------------------------------------
E-------------------------------------------
Agar tum kaho


E-12-12--9-10-7-----------------------------
G-------------------------------------------
D-------------------------------------------
A-------------------------------------------
E-------------------------------------------
Tum ko bulaoun


E-12-12-12-12-9-10-7------------------------
G-------------------------------------------
D-------------------------------------------
A-------------------------------------------
E-------------------------------------------
Ke palkein jhukaoun


E-12-12-14-14-10-10-10-12-10-12-10-9-7------
G-------------------------------------------
D-------------------------------------------
A-------------------------------------------
E-------------------------------------------
Kadam tum jahan jahan rakhoun


E-5-7-5-9--9-9-5-5-5------------------------
G-------------------------------------------
D-------------------------------------------
A-------------------------------------------
E-------------------------------------------
Zameen ko Assman Banaoun


E-5-9-9-9---5-5-5---------------------------
G-------------------------------------------
D-------------------------------------------
A-------------------------------------------
E-------------------------------------------
Sitaron se sajaoun


E-7-2---2-4--4-5----------------------------
G-------------------------------------------
D-------------------------------------------
A-------------------------------------------
E-------------------------------------------
Ager tum kaho

No comments: