Search More chords.

Friday, September 26, 2008

Tabs for Kyun chalti hai pawan

Tabs for Kyun chalti hai pawan
From Kaho na pyar hain(KNPH)
tabs by divya..


E|-------------------------------------------------
B|---3-----3---1----------1------------------------
G|----------------3----3---------------------------
D|-------------------------------------------------

Kyun Chalti Hai Pawan


E|-------------------------------------------------
B|---3-----3---1----------1------------------------
G|----------------3----3---------------------------
D|-------------------------------------------------

Kyoon Jhoomey Hai Gagan


E|----------------1--------------------------------
B|-1------3---4------4--3--4--3-1------3-1---------
G|------------------------------------------3-2----
D|-------------------------------------------------

Kyoon Machchalta Hai Mann


E|-------------------------------------------------
B|-------------------------------------------------
G|-----5--3--2-5--3------------5---3--2-5--3-------
D|-3------------------------3----------------------
A|-------------------------------------------------

Na Tum Jano Na Hum Na Tum Jano Na Hum


Try da..

No comments: