Search More chords.

Friday, September 26, 2008

tabs for Chaand mera dil from Hum kisi se kam nahi.

Tabs for Chaand mera dil by bhaanu.
Singer: Rafi
Movie: Hum kisi se kam nahin.




Starting:
E -----------0-------------------------------------
B -------------1-----------------------------------
G ------0-2------0--0------------------------------
D --0-2---------------2-0--------------------------
A ------------------------3-0----------------------
E ------------------------------------------------



E ---------------0--------------------------------
B -------0--1-3------3-----------0---3----1-------
G ---2---------------------0--2-------------------
D ------------------------------------------------
Chaand mera dil Chandni ho tum


E ----------------------------------------------
B ---1---0-----0-1--------------------0---------
G ----------2------------------0--2--------2----
D ------------------3-------3-------------------
A ----------------------------------------------
Chaand se hai door chandni kahan



E -----------0----------------------------------------------
B ----0--1--3--3-----------0--3---1----1----0-----0-1-------
G -2---------------0---2-----------------------2------------
D ----------------------------------------------------3-----
A ----------------------------------------------------------
Laut ke aana hai yahin tumko ja rahe ho tum


E -------------------------------------------------------------
B --------------0----------------------------------------------
G -------0---2------2------------------------------------------
D ---3---------------------------------------------------------
A -------------------------------------------------------------
Jao meri jaan


E ------------------------------------------------
B ------------------------------------------------
G ---0--0--0--2-- 2--2---------------2----2---2---
D --------------------------3--3--3---------------
A ------------------------------------------------
E ------------------------------------------------
Waise to har kadam milenge log sanam

E ------------------------------------------------------
B ----0-1---1--1--3-----1-------------------------------
G --2----------------------2----2---0---0-----0-2--0----
D ----------------------------------------------------3-
A ------------------------------------------------------
Milega sachcha pyar mushkil se... ho O O

Dil ki dosti khel nahin koi
Dil se dil hai milta yaar mushkil se


E ------------------------------------------------------
B ----------0---0--0----1--0--1--0--1-0-----------------
G --0--0-0------------------------------2---------------
D ------------------------------------------------------
yahi to hai sanam pyaar ka thikana.

E ------------------------------------------------------
B ------------------------------------------------------
G ---0----0----1----1------2----2-----------------------
D ------------------------------------------------------
main hoon main hoon main hoooon.....

No comments: