Search More chords.

Tuesday, September 16, 2008

Kya mujhe pyar hai: Woh lamhe(kay kay)

Guitar tabs n chords for
Kya mujhe pyar hai from Woh Lamhe
Submitted by Rohan
Singer: Kay Kay



O OO Woh.. Wu Wahu Woh O Woh.. O Woh..
F#m------------------------------E-------

|---------------------------------------7-----7--
|--9--10--9--7--|--7----7--9--|--10----10------
|----------------------9-------------------------
|------------------------------------------------
|------------------------------------------------
|------------------------------------------------

Kyun Aaj Kal Neend Kam Khawab Zayad Hain.
F#m------------------------------E-------

|---------------------------------------7-----7--
|--9--10--9--7--|--7----7--9--|--10----10------
|----------------------9-------------------------
|------------------------------------------------
|------------------------------------------------
|------------------------------------------------


Lagta Hai Khuda Ka Koi Nek.. Irada Hai.
F#m------------------------------E-------

|---------------------------------------7-----7--
|--9--10--9--7--|--7----7--9--|--10----10------
|----------------------9-------------------------
|------------------------------------------------
|------------------------------------------------
|------------------------------------------------

Kal Tha Fakeer Aaj Shehzada Hai.
F#m------------------------------E-------

|---------------------------------------7-----7--
|--9--10--9--7--|--7----7--9--|--10----10------
|----------------------9-------------------------
|------------------------------------------------
|------------------------------------------------
|------------------------------------------------

Lagta Hai Khuda Ka Koi Nek.. Irada Hai.
F#m------------------------------E-------

|---------------------------------------7-----7--
|--9--10--9--7--|--7----7--9--|--10----10------
|----------------------9-------------------------
|------------------------------------------------
|------------------------------------------------
|------------------------------------------------


Kya Mujhe Pyar Hai EeeeYaaa

A-------------------------E-------

|-----------------12-12-12-12--9--------
|--10-10--9--10-------------------9-----
|----------------------------------------
|----------------------------------------
|----------------------------------------
|----------------------------------------


Kaisa Khumar Hai EeeeYaaa

A-------------------------E-------

|-----------------9-9-9-9----------
|--10-10--9--10------------12--9--
|-----------------------------------
|-----------------------------------
|------------------------------------
|------------------------------------

O OO Woh.. Wu Wahu Woh O Woh.. O Woh..
F#m------------------------------E-------

|---------------------------------------7-----7--
|--9--10--9--7--|--7----7--9--|--10----10------
|----------------------9-------------------------
|------------------------------------------------
|------------------------------------------------
|------------------------------------------------

No comments: