Search More chords.

Friday, September 5, 2008

Guitar Tabs for Socha hai....Rock on (2008)

Socha hai tabs by Karthy...


intro
E5
--------------------
--------------------
--------------------
14---0-2-4---4-6-7--4-2-----
14------------------
12------------------


--------------------
--------------------
--------------------
14---12-14-16---16-18-19--16-14----
12-----------------
12-----------------


post intro.......
E-------------------------------------------------------------------------------------------------------
B---3--3--3--3---3--3--3--3---3--3--3--3---3--3--3--3--------------------------------------------
G-----2--2--2--2---0--0--0--0---4--4--4--4---2--2--2--2------------------------------------------ X2
D-------------------------------------------------------------------------------------------------------
A------------------------------------------------------------------------------------------------------
E-------------------------------------------------------------------------------------------------------


leads

------------------------------------------------
------------------------------------------------
------------------------------------------------
7-7-9---7-----7-9---7--------------------------
------10----------10-----10-9-7-9---7-----7-9-
-----------------------------------10----10----


-------------------------------------------------
---------------------------------------------------
-------------------------------------------------
7-7-9---7-----7-9---7--7-9--------------------------
------10----------10-------9-7---7-----7-9-----
--------------------------------10----------10---------


---------------------------------------------------------------------
-----------------------------------------------------------------------
---------19-21b-21-19-----19-21b-21-19-----21b-21-19-21-19---------
7s19-21---------------19----------------19-------------------21-19---
------------------------------------------------------------------------
-------------------------------------------------------------------------


-------------------------------------------------
-------15-17b-17-15-----15-17b-17-15----------
14-16----------------14---------------14---------
-------------------------------------------------
-------------------------------------------------
---------------------------------------------------

to be played fast
--------------14-15-17-15---------------------------------
-------15-17---------------17-15----------------------------
16-14-----------------------------16-14--------------------
-----------------------------------------16-14-------------
------------------------------------------------17-14-12b----
-----------------------------------------------------------

3 comments:

zoya said...

let ne tell u it is d, g n a
n not e5

rajesh said...

hey its D!!!

vikash said...

Hey dude its D yaar!!