Search More chords.

Monday, March 3, 2008

Kaho na Kaho: Murder

Kaho na Kaho(tabs)


Intro....
e-----------------------------------------
B-----------------------------------------
G----------------------------------------
D--5-7-8-7--7-7-7----5-7-8-7--7-7-7----
A----------------------------------------
E----------------------------------------

e-----------------------------------------
B-----------------------------------------
G------5----------------------------------
D--5-7--8-8-8-8-8----5-7-8-7------------
A----------------------------------------
E----------------------------------------

Song starts
e------------------------------------------------
B------------------------------------------------
G--5-5-4----5----5-5-5----5-5-5-5----5-5-5-4---5-4-
D---------7------------------------------------7-----
A-------------------------------------------------
E-------------------------------------------------
Kaho na kaho, yeh aanken, bolti hai, oh sanam oh sanammm

e----------------------------------------
B---------------------------------------
G--5-5-4----5-4-------------------------
D---------7------------------------------
A---------------------------------------
E----------------------------------------
oh mere sanammmm

e----------------------------------------
B---------------------------------------
G--4-4-4---4-4-4-4---4-4------4---------
D--------------------------7-6------------
A---------------------------------------
E----------------------------------------
mohabbat, ke safar mein, tu hamara hain

e----------------------------------------
B---------------------------------------
G--4-4-4----4-4-4-4--4-4----------------
D--------------------------7-6-7-----------
A---------------------------------------
E----------------------------------------
ghaneri, sahilo ka, tu kinar hai (not sure about the lyrics over here)


e----------------------------------------
B---------------------------------------
G----2-2-2-2-2---2-2-2-4-2------------- (play this part fast)
D--2-------------------------------------
A---------------------------------------
E----------------------------------------
Baadalo se unchi, udaan unki
sabse alag, pechcaan unki

e----------------------------------------
B---------------------------------------
G--4-4-4--4-4-4-2-4-4-2-0--------------
D---------------------------------------
A---------------------------------------
E----------------------------------------
unko hai, pyar ki kahaani manjoor

e----------------------------------------
B---------------------------------------
G--4-4-4-4-5-4-2-2-2-2----------------
D---------------------------------------
A---------------------------------------
E----------------------------------------
aate jaate sabaki rawani manjoor


Enjoy notes and plz share chords and make your comments too....

1 comment:

Narendra Kumar said...

nice tabs,please send full tab.