Search More chords.

Wednesday, March 5, 2008

Alvida: Life in a Metro(tabs)

Alvida(Tabs)


-------------------------------------------
-------------------------------------------
0-3-3-0-3---------------------------------
-------------------------------------------
-------------------------------------------
-------------------------------------------
chupke se kahin

---------------------------------------------
---------------------------------------------
0-3-8-7-3-----------------------------------
---------------------------------------------
---------------------------------------------
---------------------------------------------
dheemein pawn se

--------------------------------------------
--------------------------------------------
0-3-8-7-3---------------3-5-5-3-----------
---------------------------------------------
---------------------------------------------
---------------------------------------------
jaane kis tarahn........kis ghadi


---------------------------------------------
---------------------------------------------
0-3-3-0-3-----------------------------------
---------------------------------------------
---------------------------------------------
---------------------------------------------
aage badd gaye

---------------------------------------------
---------------------------------------------
0-3-8-7-3-----------------------------------
---------------------------------------------
---------------------------------------------
---------------------------------------------
humse raah mein

---------------------------------------------
---------------------------------------------
0-3-8-7-3---------------3-5-5-3-------------
---------------------------------------------
---------------------------------------------
---------------------------------------------
par tum to abhi..........the yahin

---------------------------------------------
---------------------------------------------
0-1-3-1-1-----------------------------------
---------------------------------------------
---------------------------------------------
---------------------------------------------
kuchh bhi na suna

---------------------------------------------
---------------------------------------------
0-1-3-1-1--------------------------------
---------------------------------------------
---------------------------------------------
---------------------------------------------
kab ka tha gila

---------------------------------------------
---------------------------------------------
-3-3---5---7-3---0-1-3-----------------
---------------------------------------------
---------------------------------------------
---------------------------------------------
kaise keh diya alvida

---------------------------------------------
---------------------------------------------
12-10-8---8-10-12--------------------
---------------------------------------------
---------------------------------------------
---------------------------------------------
alvida alvidaaaa

---------------------------------------------
---------------------------------------------
10-8-10-10---7-8-10-------------------------
---------------------------------------------
---------------------------------------------
---------------------------------------------
ab kehna aur kya

---------------------------------------------
---------------------------------------------
8-7-8-8----5-7-8------------8-10-5--
---------------------------------------------
---------------------------------------------
---------------------------------------------
jab tune keh diya alvida

2 comments:

Anonymous said...

You have done a great job friend...but in some notes u have done little mistakes...and also instead of reaching the 7th fret of 3rd string(from bottom) which is little tough u can simply play the same notes in 2nd and 1st string(from bottom). in my opinion this is the correct note...



-------------------------------------------
-------------------------------------------
0-3-3-0-3---------------------------------
-------------------------------------------
-------------------------------------------
-------------------------------------------
chupke se kahin

---------------------------------------------
----4-3---------------------------------------
5-5-----0-----------------------------------
---------------------------------------------
---------------------------------------------
---------------------------------------------
dheemein pawn se

--------------------------------------------
----4--3--------------------------------------
0-3-----3---------------3-5-5-3-----------
---------------------------------------------
---------------------------------------------
---------------------------------------------
jaane kis tarahn........kis ghadi


---------------------------------------------
---------------------------------------------
0-3-3-0-3-----------------------------------
---------------------------------------------
---------------------------------------------
---------------------------------------------
aage badd gaye

---------------------------------------------
----4-3---------------------------------------
5-5-----0-----------------------------------
---------------------------------------------
---------------------------------------------
---------------------------------------------
humse raah mein

--------------------------------------------
----4--3--------------------------------------
0-3-----3---------------3-5-5-3-----------
---------------------------------------------
---------------------------------------------
---------------------------------------------
par tum to abhi..........the yahin

---------------------------------------------
---------------------------------------------
0-1-3-1-1-----------------------------------
---------------------------------------------
---------------------------------------------
---------------------------------------------
kuchh bhi na suna

---------------------------------------------
---------------------------------------------
0-1-3-1-1--------------------------------
---------------------------------------------
---------------------------------------------
---------------------------------------------
kab ka tha gila

---------------------------------------------
-----------3----------------------------------
-3-3---5----3---0-1-3-----------------
---------------------------------------------
---------------------------------------------
---------------------------------------------
kaise keh diya alvida

-3--1-----------1--3--------------------------------
------4------4------------------------------------
---------------------------------------------
---------------------------------------------
---------------------------------------------
---------------------------------------------
alvida alvidaaaa

-1---1-1-----1-3-1----------------------------
---4------------------------------------------
--------------------------------------------
---------------------------------------------
---------------------------------------------
---------------------------------------------
ab kehna aur kya

--------------------------1---------------
4-3-4-4----1-3-4--------4---4-3-1-----------
-------------------------------------------
---------------------------------------------
---------------------------------------------
---------------------------------------------
jab tune keh diya alvida


play it and c the difference...reply

iNdiaAn GuiTArist said...

Hi friend....thanx for the comment....ya your note (2nd, 1st string) is better....thanx.