Search More chords.

Friday, February 29, 2008

Yaaron dosti: Pal(KK)

Album: Pal
Singer: Kay kay



Starting tune(tabs)

E||-----------------1----|--1-------------------|--------------------|
B||------------1---------|-------1--------------|--------------------|
G||-------2--------------|------------2---------|--------------------|
D||--3-------------------|-----------------3----|--3----0----x-------|
A||----------------------|----------------------|-----------------3--|
E||----------------------|----------------------|--------------------|

F Bb F Bb
Yaaron dosti badi hi haseen hai
F Bb
yeh na ho to kya phir
F Bb
bolo ye zindagi hai
F Bb
Koi to ho raazadaar
F Bb
begaraz tera ho yaar
F Bb
koi to ho raazadaar....


E||--8----5--------------||
B||------------8----6----||
G||----------------------||
D||----------------------||
A||----------------------||
E||----------------------||



Dm Am
Teri har ek burai pe
Gm C
dante vo dost
Dm Am
Gum ki ho dhup to saaya bane
Gm C
tera vo dost



interlude tabs....

E||--8----5--------------|---------8----|--5-------------------|
B||------------8----6----|--5/6---------|-------8----6----6/8--|
G||----------------------|--------------|----------------------|
D||----------------------|--------------|----------------------|
A||----------------------|--------------|----------------------|
E||----------------------|--------------|----------------------|



|----8----5--------------|--------------|---------------|
|-6------------8----6----|--6/8----8----|--8/10----8----|
|------------------------|--------------|---------------|
|------------------------|--------------|---------------|
|------------------------|--------------|---------------|
|------------------------|--------------|---------------|



|-------8----5---------|----------------------|------------------|
|--6--------------8----|--6----6/---8----8----|--8/---10----8----|
|----------------------|----------------------|------------------|
|----------------------|----------------------|------------------|
|----------------------|----------------------|------------------|
|----------------------|----------------------|------------------|



|-------8/---10----8----|--8----5----8----|-------8/---10----8----|
|--6--------------------|-----------------|--6--------------------|
|-----------------------|-----------------|-----------------------|
|-----------------------|-----------------|-----------------------|
|-----------------------|-----------------|-----------------------|
|-----------------------|-----------------|-----------------------|



|--8----5----8----5----|-------6----5----|------------------------||
|----------------------|--6--------------|--8----6----5----5/6----||
|----------------------|-----------------|------------------------||
|----------------------|-----------------|------------------------||
|----------------------|-----------------|------------------------||
|----------------------|-----------------|------------------------||

8 comments:

Unknown said...

heyyyyy can u plzzzzzz help me...........by giving strumming pattern for this song ?

-nishant
cool_nishantgoel@yahoo.co.in

Unknown said...

hey can u pls help me with the strumming pattern of this song?

-pallavi
mysteriousjess@gmail.com

Pratik said...

Hey! Plz send me the strumming pattern

Unknown said...

hey plz snd me the strumming pattern

Tejal said...

heyyyy stumming pattern plezz!!!!!
simplyme.tejal@gmail.com

Tejal said...

heyyyy stumming pattern plezz!!!!!
simplyme.tejal@gmail.com

Tejal said...

heyyy stumming pattern plezzz!!!!
simplyme.tejal@gmail.com
thankkkkz

alopdhar89 said...

DDUUD..with muting effect