Search More chords.

Tuesday, February 19, 2008

Tum pass aaye: KKHH(tabs)

E -9-10-9-----9-------------------------
B -------12-10--------------------------
G---------------------------------------
D --------------------------------------
A --------------------------------------
E --------------------------------------
Tum Pass Ayye

E -9-10-9-------------------------------
B --------12-10-12----------------------
G---------------------------------------
D --------------------------------------
A --------------------------------------
E --------------------------------------
Youn Muskuraye

E ---9----------------------------------
B -12-12-10--12-------------------------
G----------12--11-----------------------
D --------------------------------------
A --------------------------------------
E --------------------------------------
Tum nein najane kya

E -------9------------------------------
B -12-10--12-10-10-10-------------------
G---------------------------------------
D --------------------------------------
A --------------------------------------
E --------------------------------------
Sapne Dikhaye

E ---------14-12------------14-14-12----
B -10-12-14---------10-12-14------------
G---------------------------------------
D --------------------------------------
A --------------------------------------
E --------------------------------------
Abb to Mera Dil..Jaage na Sota Hai


E ---9----------------------------------
B -12-12-10--12-------------------------
G----------12--11-----------------------
D --------------------------------------
A --------------------------------------
E --------------------------------------
Kya Karoun Haye

E -------9------------------------------
B -12-10--12-10-10-10-------------------
G---------------------------------------
D --------------------------------------
A --------------------------------------
E --------------------------------------
Kuch Kuch Hota Hai

No comments: