Search More chords.

Wednesday, February 20, 2008

Tadap tadap ke(Tabs): Hum dil de chuke sanam

.......Tadap.......tadap......ke....iss....dil.... .se
G |--2-----2----------------------2-----2------2-------------
D |-----4--------4-2-0-----0-----------------------------

.......Aah.......nikalti........rahi
G |--2-4-2---------4------4-4----------
D |-----------4-2---------------------

......Mujhko..........sajaa...di.....pyar.......ki
B |----------3------3-3-----------5-3-------3------------
G |--2-2-4------------------4--------------------------

......Aisa....kya...gunaah....kiya
B |--3-5----5-----7-5--------3-3--------

......To.....lut....gaye.....haan....lut......gaye
B |--3-3---5----7-5-7----5-3-----5-3----3-3--------

......To.....lut......gaye....hum....teri......... .mohabbat...mein
B |--3-----5-3----3-3-----3-------5-3-3--------------------------
G |----------------------------------------------4-4-3-3-----2-2------

STANZA :-

......Ajab....hai....ishq.......yaara............. .......................
E |-----------------------------------------3--3-5--3-2---------
B |--3-3----5-----7-5------7-7-------5------------------------

......Pal....do....pal....ki......khusiyan........ ..........................
B |--------3-----5-----3-----5-5----------3-5-3--1-3-1----------------
G |--3------------------------------------------------------3-5-3-2------

......Gham....ke....khazane.........milte.....hain ....phir
B |--3--------3-----3-3-2-5-3------3-2---------------------
G |--------------------------------------------3-------3-----------

......Milti........hain......tanhaiyan
B |-------------------------2----------------
G |------3--------------3------3-2----------
D |--5---------5----------------------------

......Kabhi.....aansoo......kabhi.......aanhein
B |----------------------------3--------3-3-5-------------
G |-----2-----2-2-3-------3---------------------------
D |--4-----------------------------------------------

......Kabhi....sikwae....kabhi......naale
B |--5-5-----5-3--------3-3-------3----------------------
G |------------------------------------3-------------------

......Tera....chehra....nazar....aaye
G |--3-3----3-2-----------------3-2-----------------------
D |---------------------4-4------------------------------

1 comment:

aditya said...

that sounds great

thanks a lot