Search More chords.

Monday, February 25, 2008

(Tabs)Had kar di aapne: Had kardi aapne

E |-----5---4---7--5---4-------------5--4---7--5---------|
B |--5--------------------5------5-----------------------|
G |------------------------------------------------------|

Pal Do Pal Ka Yeh Safar, Pal Do Pal Ka Saath


E |-----5---4---7---5-4--------------5--4---7--5---------|
B |--5-------------------5-------5-----------------------|
G |------------------------------------------------------|

Humne Hanskar Aaapse, Yunhi Karli Baat


E |-12/13-12--10--10--10/12-10--8-8---8/10--8---8------7-|
B |------------------------------------------10---9------|
G |------------------------------------------------------|

Aapne Samjha Ho Gayi Hai Bin Badal Barsaat



E |---8----7---5-8-8-7----7----7---7--5-5-5--------------|
B |------------------------------8-----------------------|
G |------------------------------------------------------|

Hadh Kardi Aapne , Hadh Kardi Aapne ...


E |---8----7---5-8/10--8-7-----7----7---7--5-5-5---------|
B |-----------------------------------8------------------|
G |------------------------------------------------------|

Hadh Kardi Aapne , Hadh Kardi Aapne ...


E |------5--4---8-----------3---5----1---3--1------------|
B |--5-------------6-5-3------------------------5--------|
G |------------------------------------------------------|

Aap Na Maano Aapke , Dil Mein Chhupa Hai Chor


E |------5--4---8--10-----------3--5-1--3--1-------------|
B |--5----------------6-5--3--------------------5--------|
G |------------------------------------------------------|

Ik Ladki Ko Chhedne Ka, Matlab Kya Hai Aur


E |-12/13-12-10--10--10/12-10-8-8-8/10-8-----8--------7--|
B |--------------------------------------10------9-------|
G |------------------------------------------------------|

Maang Rahe Ho Dil Aise Jaise Maange Khairaat


E |---8----7---5-8-8-7----7----7---7--5-5-5--------------|
B |------------------------------8-----------------------|
G |------------------------------------------------------|

Hadh Kardi Aapne , Hadh Kardi Aapne ...

1 comment:

Anonymous said...

Chords please