Search More chords.

Tuesday, February 19, 2008

Neele neele amber pe (Tabs)

STARTING...

E---------------------------------------------------------------------------
B---------------------------------------------------------------------------
G------2-------3--2--3--2--3--2--3--2-------0-2-0----0---------------0------
D--0-----------------------------------------------3----3--2--0------2------
A----------------------------------------------------------------0---0------
E---------------------------------------------------------------------------


E------1---5--3----3--5-3-------------------3----1-3-1----------------------
B--3-----------------------5--------------5------------3--------------------
G------------------------------------5--------------------------------------
D---------------------------------------------------------------------------
A---------------------------------------------------------------------------
E---------------------------------------------------------------------------
neele neele ambar par, chaand jab aaye

E------1---5--3--------------------3---1------------------------------------
B--3--------------5------------5-----------3--------------------------------
G-------------------------5-------------------------------------------------
D---------------------------------------------------------------------------
A---------------------------------------------------------------------------
E---------------------------------------------------------------------------
pyaar barasaae, hamako tarasaaye

E----------------1----10---10-10------10--------10----8---8--8-8-8----------
B---3------3------------------------------10--------------------------------
G------2--------------------------------------------------------------------
D---------------------------------------------------------------------------
A---------------------------------------------------------------------------
E---------------------------------------------------------------------------
aisaa koii saathii ho aisaa koii premii ho


E------5--8---6---6---6--8-6-5----------------------------------------------
B--6------------------------------------------------------------------------
pyaas dil kii bujhaa jaae


E------1---5--3----3--5-3-------------------3-------------------------------
B--3-----------------------5--------------5------5-6-8-6--------------------
G------------------------------------5-------------------7------------------
D---------------------------------------------------------------------------
neele neele ambar par, chaand jab a.aye


E---------5--3--------------------3-----------------------------------------
B-----5-----------5------------5-----5-6/8----------------------------------
G--7-----------------------5----------------7-------------------------------
D---------------------------------------------------------------------------
pyaar barasaae, hamako tarasaaye

E------------5---10--10-10-10------------------10---8---8--8-8-8------------
B------------------------------------------10-------------------------------
G--7-----7------------------------------10----------------------------------
D------7--------------------------------------------------------------------
A---------------------------------------------------------------------------
E---------------------------------------------------------------------------
aisaa koI saathii ho aisaa koI premii ho


E------5--8---6---6---6--8-6-5----------------------------------------------
B--6------------------------------------------------------------------------
G---------------------------------------------------------------------------
pyaas dil kii bujhaa jaae


The MUSIC IN BETWEEN

E---------------------------------------------------------------------------
B---------------------------------------------------------------------------
D--2-4----5---7--8-8/9--9-9-9---9-9-h11-----9------9--11-11-11/12-12-12-12--
A----------------------------------------13-----10--------------------------
E---------------------------------------------------------------------------

E--------------------------------------------------5-5-5-5---3-3-3-3---1-1-1-1
B----------------------7--h9-h9-h9----5-h7-h7-h7---6-6-6-6---5-5-5-5---3-3-3-3
G---7-7-h9------9-7-9--------------7---------------7--------------------------
D-----------11----------------------------------------------------------------
A-----------------------------------------------------------------------------
E-----------------------------------------------------------------------------


E---------------------------------------------------------------------------
B------1--------------------------------------------------------------------
G--2-3---3-2-0---0-2-0------------------------------------------------------
D--------------3-------3-0--------------------------------------------------
A---------------------------------------------------------------------------
E---------------------------------------------------------------------------



E--10--10--10---10--10--10--10---------10--12--10---8----------------8------
B-------------------------------------------------------10----10-10---------
G---------------------------------------------------------10----------------
D---------------------------------------------------------------------------
A---------------------------------------------------------------------------
E---------------------------------------------------------------------------
ho, uunche uunche parvat jab chuumate hai ambar ko


E--6---6---6----6--6--6---------6---8----------------------8----------------
B---------------------------------------9----------9-9-9--------------------
G------------------------------------------10-10----------------------------
D---------------------------------------------------------------------------
A---------------------------------------------------------------------------
E---------------------------------------------------------------------------
pyaasaa pyaasaa ambar jab chuumataa hai saagar ko


E---------------------------------------------------------------------------
B--------10--8-8-10-8--------------------8----6-6--8-6----------------------
G-----10---------------999------------9-----------------7-7-7---------------
D--12----------------------------10-----------------------------------------
A---------------------------------------------------------------------------
E---------------------------------------------------------------------------
pyaar se kasane ko baaho.n me.n basane ko

E---------------------------------------------------------------------------
B----------10--8-10--8-------------------8--6--8-6--------------------------
G-----10---------------9--------------9------------7------------------------
A---------------------------------------------------------------------------
D--12------------------------------10---------------------------------------
E---------------------------------------------------------------------------
dil meraa lalachaaye koI to aa jaaye


E------------5---10--10-10-10------------------10---8---8--8-8-8------------
B------------------------------------------10-------------------------------
G--7-----7------------------------------10----------------------------------
D------7--------------------------------------------------------------------
A---------------------------------------------------------------------------
E---------------------------------------------------------------------------
aisaa koI saathii ho aisaa koI premii ho

E------5--8---6---6---6--8-6-5----------------------------------------------
B--6------------------------------------------------------------------------
E---------------------------------------------------------------------------
A---------------------------------------------------------------------------
pyaas dil kii bujhaa jaae

1 comment:

Arindam Mojumder said...

this chord i wrong original song in in Em and the group chord is Em,D,C and Bb.