Search More chords.

Thursday, February 28, 2008

Jadoo teri nazar: Darr

E|----------------------------------------------------------------||
B|----------------------------------------------------------------||
G|----0---7-----5--7--5--3--2----------5--3--5--3--2--0---||
D|---------------------------------3-----------------------------||
A|----------------------------------------------------------------||
E|----------------------------------------------------------------||

Jadoo teri nazar.......khusbhu...tera badan

E|----------------------------------------------------------------||
B|-----------------------------------------------------------------||
G|--------3---2--------2--0-----3-2---2-0--0-0--8---10-8-7--||
D|---0-------------0----------0-----0-----------------------------||
A|------------------------------------------------------------------||
E|------------------------------------------------------------------||

tu haan kar...yaa naa kar.

E|---------------------------------------------------------------||
B|---------------------------------------------------------------||
G|---0-0--8---10-8-7----------------------------------------||
D|---------------------------------------------------------------||
A|---------------------------------------------------------------||
E|---------------------------------------------------------------||

tu hai..meri kiran...





piece..
E|---------------------------------------------------------------||
B|---------------------------------------------------------------||
G|----7-7-5-7-5-5-3-2-5-----0-0-0-0-2-3-5-5------------||
D|---------------------------------------------------------------||
A|---------------------------------------------------------------||
E|---------------------------------------------------------------||


E|---------------------------------------------------------------||
B|---------------------------------------------------------------||
G|----10-10-8-10-8-8-7-5-8---7-5-3-3-5-7-7-----------||
D|--------------------------------------------------------------||
A|--------------------------------------------------------------||
E|--------------------------------------------------------------||



stanza...
E|-------------------------------------------------------------||
B|-------------------------------------------------------------||
G|----3-5-3--------------------------------------------------||
D|------------3-5-3-3-5-3-1----------------------------||
A|-------------------------------------------------------------||
E|-------------------------------------------------------------||
mere khwabo ki tasavir hai tu.........


E|-------------------------------------------------------------||
B|-------------------------------------------------------------||
G|---------8-10-8-7-7-5-3-5-3-3 ---------||
D|---5-5-------------------------------------------||
A|------------------------------------------------------------||
E|-------------------------------------------------------------||
bekhar meri takadir hai tu...

E|------------------------------------------------------------||
B|------------------------------------------------------------||
G|---------8-10-8-7-5-7-5-3-5-7---------------------||
D|------------------------------------------------------------||
A|------------------------------------------------------------||
E|------------------------------------------------------------||

tu kisi...aur ki ho na jana...

E|------------------------------------------------------------||
B|------------------------------------------------------------||
G|---------7-8-7-5----5-7-5-3-2-0-2-0 -----------------||
D|------------------------------------------------------------||
A|------------------------------------------------------------||
E|------------------------------------------------------------||

kuchh bhi kar...jaunga me diwana.....


E|----------------------------------------------------------------||
B|-----------------------------------------------------------------||
G|--------3---2--------2--0-----3-2---2-0--0-0--8---10-8-7--||
D|---0-------------0----------0-----0-----------------------------||
A|------------------------------------------------------------------||
E|------------------------------------------------------------------||

tu haan kar...yaa naa kar.

E|---------------------------------------------------------------||
B|---------------------------------------------------------------||
G|---0-0--8---10-8-7----------------------------------------||
D|---------------------------------------------------------------||
A|---------------------------------------------------------------||
E|---------------------------------------------------------------||

tu hai..meri kiran...


rest is similar to the above one.....
plz try these and make comments too.....

7 comments:

Anonymous said...

Very nice. Many thanks

Sarang Khapli said...

excellent man ! thanks. keep posting

Anonymous said...

So perfect. thk u!

iNdiaAn GuiTArist said...

Hi thanks guys....
keep on visiting www.greatchords.com

Unknown said...

Can you pls explain this in terms of Sa re ga ma....I m beginner and doesn't know how 2 read these tabs.

Arjun Mehra said...

Superb ... this now happens to be the first song i ll play on my guitar :D ...thank u so much

Unknown said...

great job ...