Search More chords.

Wednesday, February 20, 2008

Are re Are ye: Dil to pagal hai

Are re Are ye kya hua....
Film : dil to pagal hai



E|------------------7---5------------------------------------|
B|----5--7-8--5-------------8-7---------------------------|
G|-------------------------------------------------------|

are re are yeh kya hua

E|--------------------8-7----------------------------------|
B|------5--7---8--5----------------------------------------|
G|---------------------------------------------------------|

maine na yeh jaana

E|------------------7----5---------------------------------|
B|-----5--7-8--5-5----------8--7---------------------------|
G|---------------------------------------------------------|

are re are ban jaaye na

E|---------5---7------------------------------------------|
B|-------8-------7---8-7--5---------------------------------|
G|---------------------------------------------------------|

kahin koi afsaana

E|---------7----5-7--5-------------------------------------|
B|----5-8--------------8-----------------------------------|
G|---------------------------------------------------------|

baat kuch hoti rahe

E|---------7-10--------------------------------------------|
B|----5-8-------10------------------------------------------|
G|---------------------------------------------------------|

baat jab tak ho


E|----------------12-10/12---10--7-------------------------|
B|-------12-12-12--------------------8---------------------|
G|---------------------------------------------------------|
b b b e d/e d b g
ssamne baithe raho tum

E|-----7--5-7-5--------------5-----------------------------|
B|---8------------7-----------8-7--5----------------------|
G|---------------------------------------------------------|
g b a b a g f# a g f# e
raat jab tak ho..


E|---------------------------------------------------------|
B|----5--7-8--5-5------------8-7---------------------------|
G|------------------7---5----------------------------------|
e f# g e e b a g f#

No comments: