Search More chords.

Tuesday, August 21, 2012

Tabs for Baazigar O Baazigar: Baazigar


Tabs for Baazigar o baazigar
Movie: Baazigar


E--7-7-7-7-8-7-7/10-10-|-8-7-5---5-5-5---10-8-7-7-|
B----------------------|--------------7-----------|
G-------------------------------------------------|
D-------------------------------------------------|
A-------------------------------------------------|
E-------------------------------------------------|


E-7---7-7-8-7-7/10-10--|-8-7-5--5-5----10-8-7-7-R-|
B----------------------|------------7-------------|
G-------------------------------------------------|
D-------------------------------------------------|
A-------------------------------------------------|
E-------------------------------------------------|


E-7-7-5-8-7-5---7-|-5-----5---------|-----------------|
B-------------8---|---8-7---8-7-5-8-|-7-5---7-5-------|
G-----------------|-----------------|-----7-----7-5-5-|
D-----------------------------------------------------|
A-----------------------------------------------------|
E-----------------------------------------------------|


E-----------------|---5-5-----------|
B-----------------|-7-----8-7-8\7-5-|
G-7-5-4---4-4/8---|-----------------|
D-----------------------------------|
A-----------------------------------|
E-----------------------------------|

No comments: