Search More chords.

Wednesday, February 20, 2008

Badi mushkil hai: Anjaam

Song = Bari Muskil Hai Khoya Mera Dil Hai
Film = Anjaam




E-9-7-9-7-5-5----9-7-9-7-5-5-----------------------------------
G-------------------------------------------
D-------------------------------------------------------------
A-------------------------------------------------------------
E-------------------------------------------------------------
Bari Muskil Hai Khoya Mera Dil Hai

E-5-12-10-12-10-9-10-9-7-9-10-9-7----------------------------
G------------------------------------------------------------
D-------------------------------------------------------------
A-------------------------------------------------------------
E-------------------------------------------------------------
Koi Usey Dhond Ke Laye Ae Na

E-2-2-5-2-2-4-4-4-7-4-4---------------------------------------
G-------------------------------------------------------------
D-------------------------------------------------------------
A-------------------------------------------------------------
E-------------------------------------------------------------
Ja Ke Kahan Mein Ra pat Likhaoun

E-12--12-14-12-10-9-10-7-------------------------------------
G-------------------------------------------
D-------------------------------------------------------------
A-------------------------------------------------------------
E-------------------------------------------------------------
Koi BatLae Ae Na

E-0-2-5-7-9-7---7-9-5---------------------------------------
G-------------------------------------------
D-------------------------------------------------------------
A-------------------------------------------------------------
E-------------------------------------------------------------
Mein Roun ya Hansoun
E-2-2-2-7-2-4-5---------------------------------------------
G-------------------------------------------
D-------------------------------------------------------------
A-------------------------------------------------------------
E-------------------------------------------------------------
Karoun Mein Kya Karoun

No comments: